Numb tab . Electric Guittar l..l'.'l..l

Riff A (Guitar 1)
eb------------15---18---17---------------18---17-------------
Bb--15-18-15-------------------15-18-15------------18--------
Gb-----------------------------------------------------------
Db-----------------------------------------------------------
Ab-----------------------------------------------------------
Db-----------------------------------------------------------

Riff B (Guitar 2)
eb-----------------------------------------------------------
Bb-----------------------------------------------------------
Gb-----------------------------------------------------------
Db--5-----1-----8----3---------------------------------------
Ab--5-----1-----8----3---------------------------------------
Db--5-----1-----8----3---------------------------------------


Verse 1
eb--10-----6----10-----8-----10-----6----10-----8------------
Bb---8-----4-----8-----6------8-----4-----8-----6------------
Gb-----------------------------------------------------------
Db-----------------------------------------------------------
Ab-----------------------------------------------------------
Db-----------------------------------------------------------


Pre-Chorus
eb------------------------------------10---------------------
Bb--8---------10----------11---------------------------------
Gb-----<7>--------<7>--------<7>----------<7>----------------
Db-----------------------------------------------------------
Ab-----------------------------------------------------------
Db-----------------------------------------------------------


Chorus A (Guitar 1)
eb-----------------------------------------------------------
Bb-----------------------------------------------------------
Gb-----------------------------------------------------------
Db--5-----1-----8-----3-----5-----1-----8-----3--------------
Ab--5-----1-----8-----3-----5-----1-----8-----3--------------
Db--5-----1-----8-----3-----5-----1-----8-----3--------------

Chorus B (Piano arranged for Guitar 2)
eb--10-----10-----10-----11-----10-----10-----10-----8-------
Bb------8------8------8------8------8------8------8-----8----
Gb-----------------------------------------------------------
Db-----------------------------------------------------------
Ab-----------------------------------------------------------
Db-----------------------------------------------------------


Verse 2
eb------------6-----------8----------------------------------
Bb--8---------------------------------10---------------------
Gb-----<7>-------<7>---------<7>----------<7>----------------
Db-----------------------------------------------------------
Ab-----------------------------------------------------------
Db-----------------------------------------------------------

(continued)
eb------------6----------10-----------8----------------------
Bb--8--------------------------------------------------------
Gb-----<7>-------<7>---------<7>---------<7>-----------------
Db-----------------------------------------------------------
Ab-----------------------------------------------------------
Db-----------------------------------------------------------


Bridge
eb-----------------------------------------------------------
Bb-----------------------------------------------------------
Gb-----------------------------------------------------------
Db--1-----3-----5---7---8---0----1-----3----0-----0-----0----
Ab--1-----3-----5---7---8---0----1-----3----0-----0-----0----
Db--1-----3-----5---7---8---0----1-----3----0-----0-----0----

Views: 4798

Comment

You need to be a member of LinkinPark.com to add comments!

Join LinkinPark.com

Videos

  • Add Videos
  • View All

© 2014   Created by LINKIN PARK.

Badges  |  Report an Issue  |  Terms of Service